MUZBANK



A MOST COMPLETE BANK OF MUSIC INFORMATION

МУЗЫКАЛЬНО-ИНФОРМАЦИОННЫЙ БАНК







    ЗЗимовье Зверей • Конец Цитаты (аккорды и текст - chords & lyrics)


    227

    Print

    Видео «Конец Цитаты (Зимовье Зверей)»

    Видео клипы к песне подбираются автоматически сайтом youtube. Возможны некоторые несоответствия клипов песне.

    ↑ Спрятать рекламу ↑






     
    
    
    Перебор на всю песню:
    
       Em                Em/9        Em*
    e|-------0---0---|-----------0-|-----0---0---|
    B|-----0---0---0-|---------0---|---0---0---0-|
    G|---0-----------|-------0-----|-0-----------|
    D|-2-------------|-----4-------|-2-----------|
    A|---------------|---2---------|-------------|
    E|---------------|-0-----------|-------------|
          Am           Am/9        H7
    e|-------0---0-|-----------0-|-------2---2---|
    B|-----1---1---|---------1---|-----0---0---0-|
    G|---2---------|-------4-----|---2-----------|
    D|-2-----------|-----2-------|-1-------------|
    A|-------------|---0---------|---------------|
    E|-------------|-------------|---------------|
    
    Em                Em   Em/9 Em*
    Голос срывался c петель
    Em              Am   Am/9 Em  
    В дальние дали летел
    Am                  Em  Em H7
    Пробовал выйти  на крик
    Em                 Am Em/9 Em*
    Но застревал в пустоте
    
    В космосе было темно
    В комнате стыло окно
    Голос стучался в него
    Напоминал об одном
    
    Em             H7
    Верните каждому свое
    Am             H7
    Отдайте каждому свое
    Am           Am
    Пусть все идут своим путем
    Am        H7
    Приобретя утраты
    
    Отдайте каждому свое
    Верните каждому свое
    И как-нибудь переживем
    Конец цитаты
    
    [Между припевами идет проигрыш, который можно сыграть примерно так:]
    
      Рифф 1                         Рифф 2                       Рифф 3
    e|-3-3-3-2-2-0---|, Em/9, Em* e|-3-3-3-2-2-0---|, Am/9, Am e|-5-5-5-3-3-2---|, 
    H|-------------0-|            H|-------------1-|           H|-------------1-|
    
    Em, H7, Рифф 1, Em/9, Em*
                 
    Он играется не так как в оригинале, но при наличии двух гитар можно сыграть параллельно:
    1: Em     Em/9 Em*
    2: Рифф 1  
    1: Em     Am Am/9  
    2: Рифф 2
    1: Am     Em Em H7
    2: Рифф 3 
    1: Em     Em/9 Em*
    2: Рифф 1
    
    И заканчивается все таким ходом:
    e|-15-15-15-14-14-12------| 
    H|-------------------12---| 
    после этого Em провести полностью по струнам сверху вниз, задержавшись на первой струне.
     

    Тональность:

    Это должно быть в ТОП-листе! - Топ-лист композиций



    Назад
    Рекомендуем посмотреть другие песни исполнителя «Зимовье Зверей»:

    • Комменты Fb ()
    • Комменты ВК



    Добавить в Избранное Браузера
    Сохранить здесь Очистить


    x

    0


    +
    -

    +
    -

    -

    Авторизация





    Зарегистрироваться

    M

    Дата и время

    • 08:28:28
       

    Социальные ссылки


    Наши приложения

    • Muzbank App Play Market
    • Muzbank Amazon App