MUZBANK


МУЗЫКАЛЬНО-ИНФОРМАЦИОННЫЙ БАНК





ZZZ Top • Im Nationwide (аккорды и текст - chords & lyrics)


449

Print

Видео «Im Nationwide (ZZ Top)»

Видео клипы к песне подбираются автоматически сайтом youtube. Возможны некоторые несоответствия клипов песне.

↑ Спрятать рекламу ↑





4/4
Gtr I
~~

E|---8--------------------------------------------------------|
B|--11b13r11--------------------------------------------------|
G|-------------10b11r10-10-8b8.5------------------------------|
D|--------------------------------10--8-------8---------------|
A|--------------------------------------8--10---10s8-6--8--6--|
E|------------------------------------------------------------|

E|-----------------------------|
B|-11b13r11--------------10----|
G|------------10b12r10-8-10----|
D|--------------------------10-|
A|-----------------------------|
E|-----------------------------|

E|-------------------------------------------|
B|-10s11-11-11-10s11-11-11-10s11-11-11-------|
G|-11s12-12-12-11s12-12-12-11s12-12-12-10--8-|
D|-------------------------------------10--8-|
A|-------------------------------------------|
E|-------------------------------------------|

E|-8----8----------------------------|
B|-----------------------------------|
G|--------------10b11r=10--8---------|
D|---------------------------10---10-|
A|-----------------------------------|
E|-----------------------------------|

E|------------8-----------20--18--18--18-|
B|----------------10--20-----------------|
G|-10b12--10-----------------------------|
D|---------------------------------------|
A|---------------------------------------|
E|---------------------------------------|

E||---------------------|----------------------|
B||o--------------------|----------------------|
G||---------------------|----------------------|
D||---------------------|-10-12-10-10-10-12-10-|
A||o-10-12-8-10-10-12-8-|--8--8--8--8--8--8--8-|
E||---8--8-8--8--8--8-8-|----------------------|

E|------------------------------|------------------|
B|------------------------------|------------------|
G|------------------------------|------------------|
D|-10-12-8-10-10-12-10-10-12-10-|------------------|
A|--8--8-8--8--8--8--8--8--8-10-|-10-12-8-10-10-12-|
E|------------------------------|--8--8-8--8--8--8-|

E|---------------------------------------|
B|-11-11-11-------11-11-------11-11------|
G|-12-12-12-11S12-12-12-11S12-12-12-10-8-|
D|----------------------------------10-8-|
A|---------------------------------------|
E|---------------------------------------|

E|------------------------------------------------------------------|
B|-10b12r=10-8------------------------------------------------------|
G|-10b12r=10-8------------------------------------------------------|
D|-------------10--10------10---10---10---10---10---10---10---10-10-|
A|------------------------------------------------------------------|
E|---------------------6S8----8----8----8----8----8----8----8-------|

E|---------------------------------------------------|
B|-10b11r=10--8--------------1---3---1---3---1---3---|
G|-10b11r=10--8--------------1---3---1---3---1---3---|
D|--------------10--10--1--3---3---3---3---3---3---3-|
A|---------------------------------------------------|
E|---------------------------------------------------|

Тональность:

Это должно быть в ТОП-листе! - Топ-лист композиций



Назад
Рекомендуем посмотреть другие песни исполнителя «ZZ Top»:

  • Комменты Fb ()
  • Комменты ВК



Добавить в Избранное Браузера
Сохранить здесь Очистить


x

0


+
-

+
-

-

Авторизация





Зарегистрироваться

M

Дата и время

  • 13:28:16
     

Социальные ссылки


Наши приложения

  • Muzbank App Play Market
  • Muzbank Amazon App